ISO-10303-21;
HEADER;
FILE_DESCRIPTION (( 'STEP AP214' ),
    '1' );
FILE_NAME ('GCC-411215.STEP',
    '2020-02-15T10:10:28',
    ( 'China' ),
    ( 'Microsoft' ),
    'SwSTEP 2.0',
    'SolidWorks 2018',
    '' );
FILE_SCHEMA (( 'AUTOMOTIVE_DESIGN' ));
ENDSEC;

DATA;
#1 = ADVANCED_FACE ( 'NONE', ( #90 ), #100, .F. ) ;
#2 = ORIENTED_EDGE ( 'NONE', *, *, #20, .F. ) ;
#3 = PRODUCT_DEFINITION_FORMATION_WITH_SPECIFIED_SOURCE ( 'ÈÎºÎ', '', #26, .NOT_KNOWN. ) ;
#4 = CARTESIAN_POINT ( 'NONE',  ( 25.39999999999999858, 3.110602869834276865E-15, 0.0000000000000000000 ) ) ;
#5 = EDGE_CURVE ( 'NONE', #21, #96, #87, .T. ) ;
#6 = DIRECTION ( 'NONE',  ( -0.0000000000000000000, -0.0000000000000000000, -1.000000000000000000 ) ) ;
#7 = COLOUR_RGB ( '',0.9411764705882352811, 0.9607843137254902244, 0.9686274509803921573 ) ;
#8 =( NAMED_UNIT ( * ) SI_UNIT ( $, .STERADIAN. ) SOLID_ANGLE_UNIT ( ) );
#9 = MANIFOLD_SOLID_BREP ( 'ÇÐ³ý-À­Éì1', #135 ) ;
#10 = ORIENTED_EDGE ( 'NONE', *, *, #52, .T. ) ;
#11 = FILL_AREA_STYLE ('',( #34 ) ) ;
#12 = STYLED_ITEM ( 'NONE', ( #119 ), #50 ) ;
#13 = ORIENTED_EDGE ( 'NONE', *, *, #126, .F. ) ;
#14 = UNCERTAINTY_MEASURE_WITH_UNIT (LENGTH_MEASURE( 1.000000000000000082E-05 ), #53, 'distance_accuracy_value', 'NONE');
#15 = FACE_OUTER_BOUND ( 'NONE', #99, .T. ) ;
#16 = CARTESIAN_POINT ( 'NONE',  ( -25.40000000000000924, 50.79999999999999716, 6.886987545090589968 ) ) ;
#17 = EDGE_LOOP ( 'NONE', ( #112, #78, #106, #31 ) ) ;
#18 = VERTEX_POINT ( 'NONE', #137 ) ;
#19 = FILL_AREA_STYLE_COLOUR ( '', #64 ) ;
#20 = EDGE_CURVE ( 'NONE', #96, #110, #49, .T. ) ;
#21 = VERTEX_POINT ( 'NONE', #81 ) ;
#22 =( NAMED_UNIT ( * ) SI_UNIT ( $, .STERADIAN. ) SOLID_ANGLE_UNIT ( ) );
#23 = SURFACE_SIDE_STYLE ('',( #25 ) ) ;
#24 = AXIS2_PLACEMENT_3D ( 'NONE', #40, #113, #128 ) ;
#25 = SURFACE_STYLE_FILL_AREA ( #11 ) ;
#26 = PRODUCT ( 'GCC-411215', 'GCC-411215', '', ( #107 ) ) ;
#27 = PRODUCT_RELATED_PRODUCT_CATEGORY ( 'part', '', ( #26 ) ) ;
#28 = DIRECTION ( 'NONE',  ( 0.0000000000000000000, 0.0000000000000000000, 1.000000000000000000 ) ) ;
#29 = AXIS2_PLACEMENT_3D ( 'NONE', #122, #28, #101 ) ;
#30 = DIRECTION ( 'NONE',  ( -0.0000000000000000000, -0.0000000000000000000, -1.000000000000000000 ) ) ;
#31 = ORIENTED_EDGE ( 'NONE', *, *, #20, .T. ) ;
#32 = SURFACE_STYLE_USAGE ( .BOTH. , #124 ) ;
#33 = CARTESIAN_POINT ( 'NONE',  ( 25.39999999999998792, 50.79999999999999716, 6.886987545090589968 ) ) ;
#34 = FILL_AREA_STYLE_COLOUR ( '', #7 ) ;
#35 =( GEOMETRIC_REPRESENTATION_CONTEXT ( 3 ) GLOBAL_UNCERTAINTY_ASSIGNED_CONTEXT ( ( #14 ) ) GLOBAL_UNIT_ASSIGNED_CONTEXT ( ( #53, #111, #8 ) ) REPRESENTATION_CONTEXT ( 'NONE', 'WORKASPACE' ) );
#36 = STYLED_ITEM ( 'NONE', ( #115 ), #9 ) ;
#37 = DIRECTION ( 'NONE',  ( 1.000000000000000000, 0.0000000000000000000, 0.0000000000000000000 ) ) ;
#38 = CIRCLE ( 'NONE', #48, 25.39999999999999858 ) ;
#39 = DIRECTION ( 'NONE',  ( 1.000000000000000000, 0.0000000000000000000, 0.0000000000000000000 ) ) ;
#40 = CARTESIAN_POINT ( 'NONE',  ( 0.0000000000000000000, 0.0000000000000000000, 6.000000000000000000 ) ) ;
#41 = SURFACE_STYLE_USAGE ( .BOTH. , #23 ) ;
#42 = ORIENTED_EDGE ( 'NONE', *, *, #5, .F. ) ;
#43 = APPLICATION_CONTEXT ( 'automotive_design' ) ;
#44 = CARTESIAN_POINT ( 'NONE',  ( 0.0000000000000000000, 0.0000000000000000000, 0.0000000000000000000 ) ) ;
#45 =( BOUNDED_CURVE ( )  B_SPLINE_CURVE ( 3, ( #80, #94, #86, #74 ),
 .UNSPECIFIED., .F., .T. ) 
 B_SPLINE_CURVE_WITH_KNOTS ( ( 4, 4 ),
 ( 4.712388980384689674, 7.853981633974482790 ),
 .UNSPECIFIED. ) 
 CURVE ( )  GEOMETRIC_REPRESENTATION_ITEM ( )  RATIONAL_B_SPLINE_CURVE ( ( 1.000000000000000000, 0.3333333333333333703, 0.3333333333333333703, 1.000000000000000000 ) ) 
 REPRESENTATION_ITEM ( '' )  );
#46 = EDGE_CURVE ( 'NONE', #110, #96, #38, .T. ) ;
#47 = EDGE_LOOP ( 'NONE', ( #2, #70 ) ) ;
#48 = AXIS2_PLACEMENT_3D ( 'NONE', #71, #138, #39 ) ;
#49 = CIRCLE ( 'NONE', #72, 25.39999999999999858 ) ;
#50 = ADVANCED_BREP_SHAPE_REPRESENTATION ( 'GCC-411215', ( #9, #91 ), #67 ) ;
#51 = SURFACE_STYLE_FILL_AREA ( #63 ) ;
#52 = EDGE_CURVE ( 'NONE', #21, #18, #69, .T. ) ;
#53 =( LENGTH_UNIT ( ) NAMED_UNIT ( * ) SI_UNIT ( .MILLI., .METRE. ) );
#54 = CARTESIAN_POINT ( 'NONE',  ( -50.00000000000000000, -25.43167759485687185, 4.224918703830770284 ) ) ;
#55 =( NAMED_UNIT ( * ) SI_UNIT ( $, .STERADIAN. ) SOLID_ANGLE_UNIT ( ) );
#56 = ADVANCED_FACE ( 'NONE', ( #60 ), #57, .T. ) ;
#57 = CYLINDRICAL_SURFACE ( 'NONE', #24, 25.39999999999999858 ) ;
#58 = ADVANCED_FACE ( 'NONE', ( #15 ), #139, .T. ) ;
#59 = PRESENTATION_LAYER_ASSIGNMENT (  '', '', ( #36 ) ) ;
#60 = FACE_OUTER_BOUND ( 'NONE', #17, .T. ) ;
#61 = CARTESIAN_POINT ( 'NONE',  ( 25.39999999999999858, 3.110602869834276865E-15, 6.000000000000000000 ) ) ;
#62 = CARTESIAN_POINT ( 'NONE',  ( -25.39999999999999858, 0.0000000000000000000, 6.000000000000000000 ) ) ;
#63 = FILL_AREA_STYLE ('',( #19 ) ) ;
#64 = COLOUR_RGB ( '',0.9411764705882352811, 0.9607843137254902244, 0.9686274509803921573 ) ;
#65 = AXIS2_PLACEMENT_3D ( 'NONE', #92, #6, #102 ) ;
#66 = MECHANICAL_DESIGN_GEOMETRIC_PRESENTATION_REPRESENTATION (  '', ( #36 ), #35 ) ;
#67 =( GEOMETRIC_REPRESENTATION_CONTEXT ( 3 ) GLOBAL_UNCERTAINTY_ASSIGNED_CONTEXT ( ( #76 ) ) GLOBAL_UNIT_ASSIGNED_CONTEXT ( ( #97, #116, #55 ) ) REPRESENTATION_CONTEXT ( 'NONE', 'WORKASPACE' ) );
#68 = ORIENTED_EDGE ( 'NONE', *, *, #46, .T. ) ;
#69 =( BOUNDED_CURVE ( )  B_SPLINE_CURVE ( 3, ( #84, #16, #33, #136 ),
 .UNSPECIFIED., .F., .T. ) 
 B_SPLINE_CURVE_WITH_KNOTS ( ( 4, 4 ),
 ( 1.570796326794896558, 4.712388980384689674 ),
 .UNSPECIFIED. ) 
 CURVE ( )  GEOMETRIC_REPRESENTATION_ITEM ( )  RATIONAL_B_SPLINE_CURVE ( ( 1.000000000000000000, 0.3333333333333333703, 0.3333333333333333703, 1.000000000000000000 ) ) 
 REPRESENTATION_ITEM ( '' )  );
#70 = ORIENTED_EDGE ( 'NONE', *, *, #46, .F. ) ;
#71 = CARTESIAN_POINT ( 'NONE',  ( 0.0000000000000000000, 0.0000000000000000000, 0.0000000000000000000 ) ) ;
#72 = AXIS2_PLACEMENT_3D ( 'NONE', #93, #104, #37 ) ;
#73 =( GEOMETRIC_REPRESENTATION_CONTEXT ( 3 ) GLOBAL_UNCERTAINTY_ASSIGNED_CONTEXT ( ( #132 ) ) GLOBAL_UNIT_ASSIGNED_CONTEXT ( ( #75, #105, #22 ) ) REPRESENTATION_CONTEXT ( 'NONE', 'WORKASPACE' ) );
#74 = CARTESIAN_POINT ( 'NONE',  ( -25.39999999999999858, 0.0000000000000000000, 5.113012454909410032 ) ) ;
#75 =( LENGTH_UNIT ( ) NAMED_UNIT ( * ) SI_UNIT ( .MILLI., .METRE. ) );
#76 = UNCERTAINTY_MEASURE_WITH_UNIT (LENGTH_MEASURE( 1.000000000000000082E-05 ), #97, 'distance_accuracy_value', 'NONE');
#77 = APPLICATION_CONTEXT ( 'automotive_design' ) ;
#78 = ORIENTED_EDGE ( 'NONE', *, *, #126, .T. ) ;
#79 = SHAPE_DEFINITION_REPRESENTATION ( #103, #50 ) ;
#80 = CARTESIAN_POINT ( 'NONE',  ( 25.39999999999999858, 3.110602869834276865E-15, 5.113012454909410032 ) ) ;
#81 = CARTESIAN_POINT ( 'NONE',  ( -25.39999999999999858, 0.0000000000000000000, 5.113012454909410032 ) ) ;
#82 = EDGE_LOOP ( 'NONE', ( #88, #13 ) ) ;
#83 = CARTESIAN_POINT ( 'NONE',  ( -25.39999999999999858, 0.0000000000000000000, 0.0000000000000000000 ) ) ;
#84 = CARTESIAN_POINT ( 'NONE',  ( -25.39999999999999858, 0.0000000000000000000, 5.113012454909410032 ) ) ;
#85 = DIRECTION ( 'NONE',  ( 0.0000000000000000000, 0.9993908270190954291, 0.03489949670250874075 ) ) ;
#86 = CARTESIAN_POINT ( 'NONE',  ( -25.39999999999999858, -50.79999999999999716, 3.339037364728229651 ) ) ;
#87 = LINE ( 'NONE', #62, #125 ) ;
#88 = ORIENTED_EDGE ( 'NONE', *, *, #52, .F. ) ;
#89 = FACE_OUTER_BOUND ( 'NONE', #82, .T. ) ;
#90 = FACE_OUTER_BOUND ( 'NONE', #47, .T. ) ;
#91 = AXIS2_PLACEMENT_3D ( 'NONE', #44, #95, #140 ) ;
#92 = CARTESIAN_POINT ( 'NONE',  ( 0.0000000000000000000, 0.0000000000000000000, 6.000000000000000000 ) ) ;
#93 = CARTESIAN_POINT ( 'NONE',  ( 0.0000000000000000000, 0.0000000000000000000, 0.0000000000000000000 ) ) ;
#94 = CARTESIAN_POINT ( 'NONE',  ( 25.40000000000000924, -50.79999999999999716, 3.339037364728229651 ) ) ;
#95 = DIRECTION ( 'NONE',  ( 0.0000000000000000000, 0.0000000000000000000, 1.000000000000000000 ) ) ;
#96 = VERTEX_POINT ( 'NONE', #83 ) ;
#97 =( LENGTH_UNIT ( ) NAMED_UNIT ( * ) SI_UNIT ( .MILLI., .METRE. ) );
#98 = APPLICATION_PROTOCOL_DEFINITION ( 'draft international standard', 'automotive_design', 1998, #77 ) ;
#99 = EDGE_LOOP ( 'NONE', ( #10, #121, #68, #42 ) ) ;
#100 = PLANE ( 'NONE',  #29 ) ;
#101 = DIRECTION ( 'NONE',  ( 1.000000000000000000, 0.0000000000000000000, -0.0000000000000000000 ) ) ;
#102 = DIRECTION ( 'NONE',  ( -1.000000000000000000, 0.0000000000000000000, 0.0000000000000000000 ) ) ;
#103 = PRODUCT_DEFINITION_SHAPE ( 'NONE', 'NONE',  #109 ) ;
#104 = DIRECTION ( 'NONE',  ( 0.0000000000000000000, 0.0000000000000000000, 1.000000000000000000 ) ) ;
#105 =( NAMED_UNIT ( * ) PLANE_ANGLE_UNIT ( ) SI_UNIT ( $, .RADIAN. ) );
#106 = ORIENTED_EDGE ( 'NONE', *, *, #5, .T. ) ;
#107 = PRODUCT_CONTEXT ( 'NONE', #77, 'mechanical' ) ;
#108 = DIRECTION ( 'NONE',  ( -0.0000000000000000000, -0.0000000000000000000, -1.000000000000000000 ) ) ;
#109 = PRODUCT_DEFINITION ( 'Î´Öª', '', #3, #133 ) ;
#110 = VERTEX_POINT ( 'NONE', #4 ) ;
#111 =( NAMED_UNIT ( * ) PLANE_ANGLE_UNIT ( ) SI_UNIT ( $, .RADIAN. ) );
#112 = ORIENTED_EDGE ( 'NONE', *, *, #117, .F. ) ;
#113 = DIRECTION ( 'NONE',  ( -0.0000000000000000000, -0.0000000000000000000, -1.000000000000000000 ) ) ;
#114 = AXIS2_PLACEMENT_3D ( 'NONE', #54, #131, #85 ) ;
#115 = PRESENTATION_STYLE_ASSIGNMENT (( #32 ) ) ;
#116 =( NAMED_UNIT ( * ) PLANE_ANGLE_UNIT ( ) SI_UNIT ( $, .RADIAN. ) );
#117 = EDGE_CURVE ( 'NONE', #18, #110, #134, .T. ) ;
#118 = PRESENTATION_LAYER_ASSIGNMENT (  '', '', ( #12 ) ) ;
#119 = PRESENTATION_STYLE_ASSIGNMENT (( #41 ) ) ;
#120 = ADVANCED_FACE ( 'NONE', ( #89 ), #130, .F. ) ;
#121 = ORIENTED_EDGE ( 'NONE', *, *, #117, .T. ) ;
#122 = CARTESIAN_POINT ( 'NONE',  ( 0.0000000000000000000, 0.0000000000000000000, 0.0000000000000000000 ) ) ;
#123 = MECHANICAL_DESIGN_GEOMETRIC_PRESENTATION_REPRESENTATION (  '', ( #12 ), #73 ) ;
#124 = SURFACE_SIDE_STYLE ('',( #51 ) ) ;
#125 = VECTOR ( 'NONE', #30, 1000.000000000000000 ) ;
#126 = EDGE_CURVE ( 'NONE', #18, #21, #45, .T. ) ;
#127 = VECTOR ( 'NONE', #108, 1000.000000000000000 ) ;
#128 = DIRECTION ( 'NONE',  ( -1.000000000000000000, 0.0000000000000000000, 0.0000000000000000000 ) ) ;
#129 = APPLICATION_PROTOCOL_DEFINITION ( 'draft international standard', 'automotive_design', 1998, #43 ) ;
#130 = PLANE ( 'NONE',  #114 ) ;
#131 = DIRECTION ( 'NONE',  ( 0.0000000000000000000, 0.03489949670250874075, -0.9993908270190954291 ) ) ;
#132 = UNCERTAINTY_MEASURE_WITH_UNIT (LENGTH_MEASURE( 1.000000000000000082E-05 ), #75, 'distance_accuracy_value', 'NONE');
#133 = PRODUCT_DEFINITION_CONTEXT ( 'detailed design', #43, 'design' ) ;
#134 = LINE ( 'NONE', #61, #127 ) ;
#135 = CLOSED_SHELL ( 'NONE', ( #58, #56, #1, #120 ) ) ;
#136 = CARTESIAN_POINT ( 'NONE',  ( 25.39999999999999858, 3.110602869834276865E-15, 5.113012454909410032 ) ) ;
#137 = CARTESIAN_POINT ( 'NONE',  ( 25.39999999999999858, 3.110602869834276865E-15, 5.113012454909410032 ) ) ;
#138 = DIRECTION ( 'NONE',  ( 0.0000000000000000000, 0.0000000000000000000, 1.000000000000000000 ) ) ;
#139 = CYLINDRICAL_SURFACE ( 'NONE', #65, 25.39999999999999858 ) ;
#140 = DIRECTION ( 'NONE',  ( 1.000000000000000000, 0.0000000000000000000, 0.0000000000000000000 ) ) ;
ENDSEC;
END-ISO-10303-21;
